ISO-10303-21;
HEADER;
FILE_DESCRIPTION (( 'STEP AP203' ),
    '1' );
FILE_NAME ('Q-ZDWWP-R42-25.4-1064-SHM.STEP',
    '2020-12-22T09:02:57',
    ( '' ),
    ( '' ),
    'SwSTEP 2.0',
    'SolidWorks 2020',
    '' );
FILE_SCHEMA (( 'CONFIG_CONTROL_DESIGN' ));
ENDSEC;

DATA;
#1 = DIRECTION ( 'NONE',  ( 0.000000000000000000, 0.000000000000000000, 1.000000000000000000 ) ) ;
#2 = DIRECTION ( 'NONE',  ( -1.000000000000000000, -0.000000000000000000, -0.000000000000000000 ) ) ;
#3 = CALENDAR_DATE ( 2020, 22, 12 ) ;
#4 = ORGANIZATION ( 'UNSPECIFIED', 'UNSPECIFIED', '' ) ;
#5 =( LENGTH_UNIT ( ) NAMED_UNIT ( * ) SI_UNIT ( .MILLI., .METRE. ) );
#6 = PERSON_AND_ORGANIZATION ( #24, #4 ) ;
#7 = CALENDAR_DATE ( 2020, 22, 12 ) ;
#8 = COORDINATED_UNIVERSAL_TIME_OFFSET ( 8, 0, .AHEAD. ) ;
#9 = PRODUCT_DEFINITION_FORMATION_WITH_SPECIFIED_SOURCE ( 'ANY', '', #23, .NOT_KNOWN. ) ;
#10 = PERSON_AND_ORGANIZATION ( #24, #4 ) ;
#11 = AXIS2_PLACEMENT_3D ( 'NONE', #71, #125, #1 ) ;
#12 = ORIENTED_EDGE ( 'NONE', *, *, #159, .T. ) ;
#13 = ADVANCED_BREP_SHAPE_REPRESENTATION ( 'Q-ZDWWP-R42-25.4-1064-SHM', ( #127, #35 ), #33 ) ;
#14 = ADVANCED_FACE ( 'NONE', ( #121 ), #155, .T. ) ;
#15 = ORIENTED_EDGE ( 'NONE', *, *, #62, .F. ) ;
#16 = DIRECTION ( 'NONE',  ( -1.000000000000000000, -0.000000000000000000, -0.000000000000000000 ) ) ;
#17 = APPROVAL ( #49, 'UNSPECIFIED' ) ;
#18 = PERSON_AND_ORGANIZATION ( #24, #4 ) ;
#19 = EDGE_CURVE ( 'NONE', #56, #27, #76, .T. ) ;
#20 = LOCAL_TIME ( 17, 2, 57.00000000000000000, #131 ) ;
#21 = CC_DESIGN_DATE_AND_TIME_ASSIGNMENT ( #66, #117, ( #136 ) ) ;
#22 = APPROVAL_DATE_TIME ( #25, #124 ) ;
#23 = PRODUCT ( 'Q-ZDWWP-R42-25.4-1064-SHM', 'Q-ZDWWP-R42-25.4-1064-SHM', '', ( #113 ) ) ;
#24 = PERSON ( 'UNSPECIFIED', 'UNSPECIFIED', 'UNSPECIFIED', ('UNSPECIFIED'), ('UNSPECIFIED'), ('UNSPECIFIED') ) ;
#25 = DATE_AND_TIME ( #138, #114 ) ;
#26 = PRODUCT_DEFINITION ( 'UNKNOWN', '', #9, #51 ) ;
#27 = VERTEX_POINT ( 'NONE', #175 ) ;
#28 = DIRECTION ( 'NONE',  ( -0.000000000000000000, 0.000000000000000000, 1.000000000000000000 ) ) ;
#29 = ORIENTED_EDGE ( 'NONE', *, *, #52, .F. ) ;
#30 = LOCAL_TIME ( 17, 2, 57.00000000000000000, #137 ) ;
#31 = DIRECTION ( 'NONE',  ( -1.000000000000000000, -0.000000000000000000, -0.000000000000000000 ) ) ;
#32 =( NAMED_UNIT ( * ) SI_UNIT ( $, .STERADIAN. ) SOLID_ANGLE_UNIT ( ) );
#33 =( GEOMETRIC_REPRESENTATION_CONTEXT ( 3 ) GLOBAL_UNCERTAINTY_ASSIGNED_CONTEXT ( ( #99 ) ) GLOBAL_UNIT_ASSIGNED_CONTEXT ( ( #5, #151, #32 ) ) REPRESENTATION_CONTEXT ( 'NONE', 'WORKASPACE' ) );
#34 = PERSON_AND_ORGANIZATION_ROLE ( 'creator' ) ;
#35 = AXIS2_PLACEMENT_3D ( 'NONE', #116, #129, #133 ) ;
#36 = PERSON_AND_ORGANIZATION ( #24, #4 ) ;
#37 = COORDINATED_UNIVERSAL_TIME_OFFSET ( 8, 0, .AHEAD. ) ;
#38 = AXIS2_PLACEMENT_3D ( 'NONE', #146, #103, #149 ) ;
#39 = CC_DESIGN_APPROVAL ( #156, ( #136 ) ) ;
#40 = PERSON_AND_ORGANIZATION_ROLE ( 'classification_officer' ) ;
#41 = CALENDAR_DATE ( 2020, 22, 12 ) ;
#42 = DIRECTION ( 'NONE',  ( -1.000000000000000000, 0.000000000000000000, -0.000000000000000000 ) ) ;
#43 = LINE ( 'NONE', #98, #96 ) ;
#44 = ORIENTED_EDGE ( 'NONE', *, *, #159, .F. ) ;
#45 = ORIENTED_EDGE ( 'NONE', *, *, #62, .T. ) ;
#46 = EDGE_LOOP ( 'NONE', ( #84, #142 ) ) ;
#47 = DIRECTION ( 'NONE',  ( -1.000000000000000000, -0.000000000000000000, -0.000000000000000000 ) ) ;
#48 = CARTESIAN_POINT ( 'NONE',  ( -1.614212418857619014, 1.836970198721029589E-15, -15.00000000000000000 ) ) ;
#49 = APPROVAL_STATUS ( 'not_yet_approved' ) ;
#50 = DATE_TIME_ROLE ( 'creation_date' ) ;
#51 = DESIGN_CONTEXT ( 'detailed design', #78, 'design' ) ;
#52 = EDGE_CURVE ( 'NONE', #143, #56, #43, .T. ) ;
#53 = APPLICATION_CONTEXT ( 'configuration controlled 3d designs of mechanical parts and assemblies' ) ;
#54 = AXIS2_PLACEMENT_3D ( 'NONE', #85, #16, #72 ) ;
#55 = CC_DESIGN_PERSON_AND_ORGANIZATION_ASSIGNMENT ( #18, #150, ( #23 ) ) ;
#56 = VERTEX_POINT ( 'NONE', #154 ) ;
#57 = EDGE_CURVE ( 'NONE', #143, #108, #147, .T. ) ;
#58 = DIRECTION ( 'NONE',  ( -1.000000000000000000, -0.000000000000000000, -0.000000000000000000 ) ) ;
#59 = DIRECTION ( 'NONE',  ( 0.000000000000000000, 0.000000000000000000, 1.000000000000000000 ) ) ;
#60 = DIRECTION ( 'NONE',  ( 0.000000000000000000, 0.000000000000000000, 1.000000000000000000 ) ) ;
#61 = APPLICATION_PROTOCOL_DEFINITION ( 'international standard', 'config_control_design', 1994, #53 ) ;
#62 = EDGE_CURVE ( 'NONE', #108, #143, #87, .T. ) ;
#63 = AXIS2_PLACEMENT_3D ( 'NONE', #134, #160, #60 ) ;
#64 = DATE_AND_TIME ( #7, #20 ) ;
#65 = CALENDAR_DATE ( 2020, 22, 12 ) ;
#66 = DATE_AND_TIME ( #41, #170 ) ;
#67 = PERSON_AND_ORGANIZATION ( #24, #4 ) ;
#68 = PRODUCT_DEFINITION_SHAPE ( 'NONE', 'NONE',  #26 ) ;
#69 = ORIENTED_EDGE ( 'NONE', *, *, #105, .F. ) ;
#70 = CARTESIAN_POINT ( 'NONE',  ( -3.000000000000000000, 0.000000000000000000, 0.000000000000000000 ) ) ;
#71 = CARTESIAN_POINT ( 'NONE',  ( -1.614212418857619014, 0.000000000000000000, 0.000000000000000000 ) ) ;
#72 = DIRECTION ( 'NONE',  ( 0.000000000000000000, 0.000000000000000000, 1.000000000000000000 ) ) ;
#73 = SHAPE_DEFINITION_REPRESENTATION ( #68, #13 ) ;
#74 = CARTESIAN_POINT ( 'NONE',  ( 3.000000000000000888, 12.69999999999999929, 0.000000000000000000 ) ) ;
#75 = CC_DESIGN_PERSON_AND_ORGANIZATION_ASSIGNMENT ( #115, #34, ( #26 ) ) ;
#76 = CIRCLE ( 'NONE', #173, 15.00000000000000000 ) ;
#77 = ADVANCED_FACE ( 'NONE', ( #83 ), #101, .F. ) ;
#78 = APPLICATION_CONTEXT ( 'configuration controlled 3d designs of mechanical parts and assemblies' ) ;
#79 = APPLICATION_PROTOCOL_DEFINITION ( 'international standard', 'config_control_design', 1994, #78 ) ;
#80 = CARTESIAN_POINT ( 'NONE',  ( 3.000000000000000000, 1.836970198721029589E-15, -15.00000000000000000 ) ) ;
#81 = PERSON_AND_ORGANIZATION_ROLE ( 'design_supplier' ) ;
#82 = ORIENTED_EDGE ( 'NONE', *, *, #52, .T. ) ;
#83 = FACE_OUTER_BOUND ( 'NONE', #111, .T. ) ;
#84 = ORIENTED_EDGE ( 'NONE', *, *, #19, .T. ) ;
#85 = CARTESIAN_POINT ( 'NONE',  ( 3.000000000000000000, 0.000000000000000000, 0.000000000000000000 ) ) ;
#86 = DATE_AND_TIME ( #3, #30 ) ;
#87 = CIRCLE ( 'NONE', #109, 15.00000000000000000 ) ;
#88 = APPROVAL_PERSON_ORGANIZATION ( #6, #17, #157 ) ;
#89 = CARTESIAN_POINT ( 'NONE',  ( 3.000000000000000000, 0.000000000000000000, 15.00000000000000000 ) ) ;
#90 = PRODUCT_RELATED_PRODUCT_CATEGORY ( 'detail', '', ( #23 ) ) ;
#91 = CC_DESIGN_APPROVAL ( #17, ( #26 ) ) ;
#92 = FACE_OUTER_BOUND ( 'NONE', #46, .T. ) ;
#93 = APPROVAL_ROLE ( '' ) ;
#94 = APPROVAL_PERSON_ORGANIZATION ( #163, #124, #119 ) ;
#95 = CC_DESIGN_APPROVAL ( #124, ( #9 ) ) ;
#96 = VECTOR ( 'NONE', #31, 1000.000000000000000 ) ;
#97 = CARTESIAN_POINT ( 'NONE',  ( -3.000000000000000000, 0.000000000000000000, 0.000000000000000000 ) ) ;
#98 = CARTESIAN_POINT ( 'NONE',  ( -1.614212418857619014, 0.000000000000000000, 15.00000000000000000 ) ) ;
#99 = UNCERTAINTY_MEASURE_WITH_UNIT (LENGTH_MEASURE( 1.000000000000000082E-05 ), #5, 'distance_accuracy_value', 'NONE');
#100 = EDGE_LOOP ( 'NONE', ( #44, #45, #82, #69 ) ) ;
#101 = PLANE ( 'NONE',  #120 ) ;
#102 = FACE_OUTER_BOUND ( 'NONE', #100, .T. ) ;
#103 = DIRECTION ( 'NONE',  ( 1.000000000000000000, 0.000000000000000000, 0.000000000000000000 ) ) ;
#104 = LOCAL_TIME ( 17, 2, 57.00000000000000000, #8 ) ;
#105 = EDGE_CURVE ( 'NONE', #27, #56, #123, .T. ) ;
#106 = PERSON_AND_ORGANIZATION_ROLE ( 'creator' ) ;
#107 = SECURITY_CLASSIFICATION_LEVEL ( 'unclassified' ) ;
#108 = VERTEX_POINT ( 'NONE', #80 ) ;
#109 = AXIS2_PLACEMENT_3D ( 'NONE', #126, #2, #59 ) ;
#110 = ORIENTED_EDGE ( 'NONE', *, *, #19, .F. ) ;
#111 = EDGE_LOOP ( 'NONE', ( #128, #15 ) ) ;
#112 = PLANE ( 'NONE',  #38 ) ;
#113 = MECHANICAL_CONTEXT ( 'NONE', #53, 'mechanical' ) ;
#114 = LOCAL_TIME ( 17, 2, 57.00000000000000000, #37 ) ;
#115 = PERSON_AND_ORGANIZATION ( #24, #4 ) ;
#116 = CARTESIAN_POINT ( 'NONE',  ( 0.000000000000000000, 0.000000000000000000, 0.000000000000000000 ) ) ;
#117 = DATE_TIME_ROLE ( 'classification_date' ) ;
#118 = APPROVAL_STATUS ( 'not_yet_approved' ) ;
#119 = APPROVAL_ROLE ( '' ) ;
#120 = AXIS2_PLACEMENT_3D ( 'NONE', #74, #42, #28 ) ;
#121 = FACE_OUTER_BOUND ( 'NONE', #145, .T. ) ;
#122 = AXIS2_PLACEMENT_3D ( 'NONE', #97, #153, #140 ) ;
#123 = CIRCLE ( 'NONE', #122, 15.00000000000000000 ) ;
#124 = APPROVAL ( #118, 'UNSPECIFIED' ) ;
#125 = DIRECTION ( 'NONE',  ( -1.000000000000000000, -0.000000000000000000, -0.000000000000000000 ) ) ;
#126 = CARTESIAN_POINT ( 'NONE',  ( 3.000000000000000000, 0.000000000000000000, 0.000000000000000000 ) ) ;
#127 = MANIFOLD_SOLID_BREP ( 'Ðý×', #132 ) ;
#128 = ORIENTED_EDGE ( 'NONE', *, *, #57, .F. ) ;
#129 = DIRECTION ( 'NONE',  ( 0.000000000000000000, 0.000000000000000000, 1.000000000000000000 ) ) ;
#130 = ADVANCED_FACE ( 'NONE', ( #102 ), #168, .T. ) ;
#131 = COORDINATED_UNIVERSAL_TIME_OFFSET ( 8, 0, .AHEAD. ) ;
#132 = CLOSED_SHELL ( 'NONE', ( #14, #77, #130, #152 ) ) ;
#133 = DIRECTION ( 'NONE',  ( 1.000000000000000000, 0.000000000000000000, 0.000000000000000000 ) ) ;
#134 = CARTESIAN_POINT ( 'NONE',  ( -1.614212418857619014, 0.000000000000000000, 0.000000000000000000 ) ) ;
#135 = CC_DESIGN_DATE_AND_TIME_ASSIGNMENT ( #171, #50, ( #26 ) ) ;
#136 = SECURITY_CLASSIFICATION ( '', '', #107 ) ;
#137 = COORDINATED_UNIVERSAL_TIME_OFFSET ( 8, 0, .AHEAD. ) ;
#138 = CALENDAR_DATE ( 2020, 22, 12 ) ;
#139 = APPROVAL_PERSON_ORGANIZATION ( #67, #156, #93 ) ;
#140 = DIRECTION ( 'NONE',  ( 0.000000000000000000, 0.000000000000000000, 1.000000000000000000 ) ) ;
#141 = CC_DESIGN_PERSON_AND_ORGANIZATION_ASSIGNMENT ( #10, #81, ( #9 ) ) ;
#142 = ORIENTED_EDGE ( 'NONE', *, *, #105, .T. ) ;
#143 = VERTEX_POINT ( 'NONE', #89 ) ;
#144 = APPROVAL_DATE_TIME ( #86, #156 ) ;
#145 = EDGE_LOOP ( 'NONE', ( #166, #12, #110, #29 ) ) ;
#146 = CARTESIAN_POINT ( 'NONE',  ( -3.000000000000000888, 12.69999999999999929, 0.000000000000000000 ) ) ;
#147 = CIRCLE ( 'NONE', #54, 15.00000000000000000 ) ;
#148 = CC_DESIGN_PERSON_AND_ORGANIZATION_ASSIGNMENT ( #36, #106, ( #9 ) ) ;
#149 = DIRECTION ( 'NONE',  ( 0.000000000000000000, 0.000000000000000000, -1.000000000000000000 ) ) ;
#150 = PERSON_AND_ORGANIZATION_ROLE ( 'design_owner' ) ;
#151 =( NAMED_UNIT ( * ) PLANE_ANGLE_UNIT ( ) SI_UNIT ( $, .RADIAN. ) );
#152 = ADVANCED_FACE ( 'NONE', ( #92 ), #112, .F. ) ;
#153 = DIRECTION ( 'NONE',  ( -1.000000000000000000, -0.000000000000000000, -0.000000000000000000 ) ) ;
#154 = CARTESIAN_POINT ( 'NONE',  ( -3.000000000000000000, 0.000000000000000000, 15.00000000000000000 ) ) ;
#155 = CYLINDRICAL_SURFACE ( 'NONE', #11, 15.00000000000000000 ) ;
#156 = APPROVAL ( #162, 'UNSPECIFIED' ) ;
#157 = APPROVAL_ROLE ( '' ) ;
#158 = APPROVAL_DATE_TIME ( #64, #17 ) ;
#159 = EDGE_CURVE ( 'NONE', #108, #27, #169, .T. ) ;
#160 = DIRECTION ( 'NONE',  ( -1.000000000000000000, -0.000000000000000000, -0.000000000000000000 ) ) ;
#161 = CC_DESIGN_SECURITY_CLASSIFICATION ( #136, ( #9 ) ) ;
#162 = APPROVAL_STATUS ( 'not_yet_approved' ) ;
#163 = PERSON_AND_ORGANIZATION ( #24, #4 ) ;
#164 = VECTOR ( 'NONE', #47, 1000.000000000000000 ) ;
#165 = CC_DESIGN_PERSON_AND_ORGANIZATION_ASSIGNMENT ( #172, #40, ( #136 ) ) ;
#166 = ORIENTED_EDGE ( 'NONE', *, *, #57, .T. ) ;
#167 = DIRECTION ( 'NONE',  ( 0.000000000000000000, 0.000000000000000000, 1.000000000000000000 ) ) ;
#168 = CYLINDRICAL_SURFACE ( 'NONE', #63, 15.00000000000000000 ) ;
#169 = LINE ( 'NONE', #48, #164 ) ;
#170 = LOCAL_TIME ( 17, 2, 57.00000000000000000, #174 ) ;
#171 = DATE_AND_TIME ( #65, #104 ) ;
#172 = PERSON_AND_ORGANIZATION ( #24, #4 ) ;
#173 = AXIS2_PLACEMENT_3D ( 'NONE', #70, #58, #167 ) ;
#174 = COORDINATED_UNIVERSAL_TIME_OFFSET ( 8, 0, .AHEAD. ) ;
#175 = CARTESIAN_POINT ( 'NONE',  ( -3.000000000000000000, 1.836970198721029589E-15, -15.00000000000000000 ) ) ;
ENDSEC;
END-ISO-10303-21;
